ISO-10303-21;
HEADER;
/* Generated by software containing ST-Developer
 * from STEP Tools, Inc. (www.steptools.com) 
 */

FILE_DESCRIPTION(
/* description */ (
'OLDA FS R30 - Bracket for screw fitting of floor socket, round'),
/* implementation_level */ '2;1');

FILE_NAME(
/* name */ 
'C:\\Users\\Bo\\Dropbox\\Min PC (LAPTOP-4QHNBKCC)\\Documents\\Olda Inn
ovation AB\\Export\\28-117\\28-117 3D model\\28-117-0011-X-3D.stp',
/* time_stamp */ '2021-04-26T11:02:37+02:00',
/* author */ ('Bo'),
/* organization */ (''),
/* preprocessor_version */ 'ST-DEVELOPER v18.1',
/* originating_system */ 'Autodesk Inventor 2021',
/* authorisation */ '');

FILE_SCHEMA (('CONFIG_CONTROL_DESIGN'));
ENDSEC;

DATA;
#10=MECHANICAL_DESIGN_GEOMETRIC_PRESENTATION_REPRESENTATION('',(#13),#469);
#11=SHAPE_REPRESENTATION_RELATIONSHIP('SRR','None',#476,#12);
#12=ADVANCED_BREP_SHAPE_REPRESENTATION('',(#14),#468);
#13=STYLED_ITEM('',(#485),#14);
#14=MANIFOLD_SOLID_BREP('Solid1',#250);
#15=TOROIDAL_SURFACE('',#280,14.95,0.25);
#16=CYLINDRICAL_SURFACE('',#277,13.5);
#17=CYLINDRICAL_SURFACE('',#284,15.2);
#18=CYLINDRICAL_SURFACE('',#303,25.);
#19=FACE_BOUND('',#45,.T.);
#20=FACE_BOUND('',#55,.T.);
#21=FACE_BOUND('',#56,.T.);
#22=FACE_BOUND('',#57,.T.);
#23=FACE_BOUND('',#58,.T.);
#24=FACE_BOUND('',#60,.T.);
#25=FACE_BOUND('',#61,.T.);
#26=FACE_BOUND('',#62,.T.);
#27=FACE_BOUND('',#63,.T.);
#28=PLANE('',#274);
#29=PLANE('',#306);
#30=PLANE('',#307);
#31=FACE_OUTER_BOUND('',#43,.T.);
#32=FACE_OUTER_BOUND('',#44,.T.);
#33=FACE_OUTER_BOUND('',#46,.T.);
#34=FACE_OUTER_BOUND('',#47,.T.);
#35=FACE_OUTER_BOUND('',#48,.T.);
#36=FACE_OUTER_BOUND('',#49,.T.);
#37=FACE_OUTER_BOUND('',#50,.T.);
#38=FACE_OUTER_BOUND('',#51,.T.);
#39=FACE_OUTER_BOUND('',#52,.T.);
#40=FACE_OUTER_BOUND('',#53,.T.);
#41=FACE_OUTER_BOUND('',#54,.T.);
#42=FACE_OUTER_BOUND('',#59,.T.);
#43=EDGE_LOOP('',(#165,#166,#167,#168,#169));
#44=EDGE_LOOP('',(#170,#171));
#45=EDGE_LOOP('',(#172));
#46=EDGE_LOOP('',(#173,#174,#175,#176,#177,#178));
#47=EDGE_LOOP('',(#179,#180,#181,#182,#183,#184));
#48=EDGE_LOOP('',(#185,#186,#187,#188,#189,#190));
#49=EDGE_LOOP('',(#191,#192,#193,#194,#195));
#50=EDGE_LOOP('',(#196,#197,#198,#199,#200));
#51=EDGE_LOOP('',(#201,#202,#203,#204,#205));
#52=EDGE_LOOP('',(#206,#207,#208,#209,#210));
#53=EDGE_LOOP('',(#211,#212,#213,#214,#215,#216));
#54=EDGE_LOOP('',(#217));
#55=EDGE_LOOP('',(#218,#219));
#56=EDGE_LOOP('',(#220,#221));
#57=EDGE_LOOP('',(#222,#223));
#58=EDGE_LOOP('',(#224,#225));
#59=EDGE_LOOP('',(#226,#227));
#60=EDGE_LOOP('',(#228));
#61=EDGE_LOOP('',(#229));
#62=EDGE_LOOP('',(#230));
#63=EDGE_LOOP('',(#231,#232));
#64=LINE('',#401,#72);
#65=LINE('',#410,#73);
#66=LINE('',#424,#74);
#67=LINE('',#432,#75);
#68=LINE('',#440,#76);
#69=LINE('',#448,#77);
#70=LINE('',#456,#78);
#71=LINE('',#463,#79);
#72=VECTOR('',#316,13.625);
#73=VECTOR('',#327,13.5);
#74=VECTOR('',#344,15.2);
#75=VECTOR('',#353,3.25);
#76=VECTOR('',#362,3.25);
#77=VECTOR('',#371,3.25);
#78=VECTOR('',#380,24.25);
#79=VECTOR('',#389,25.);
#80=CIRCLE('',#271,13.5);
#81=CIRCLE('',#272,13.5);
#82=CIRCLE('',#273,13.75);
#83=CIRCLE('',#275,14.95);
#84=CIRCLE('',#276,14.95);
#85=CIRCLE('',#278,13.5);
#86=CIRCLE('',#279,13.5);
#87=CIRCLE('',#281,15.2);
#88=CIRCLE('',#282,0.25);
#89=CIRCLE('',#283,15.2);
#90=CIRCLE('',#285,15.2);
#91=CIRCLE('',#286,15.2);
#92=CIRCLE('',#288,4.25);
#93=CIRCLE('',#289,4.25);
#94=CIRCLE('',#290,2.45);
#95=CIRCLE('',#292,4.25);
#96=CIRCLE('',#293,4.25);
#97=CIRCLE('',#294,2.45);
#98=CIRCLE('',#296,4.25);
#99=CIRCLE('',#297,4.25);
#100=CIRCLE('',#298,2.45);
#101=CIRCLE('',#300,25.);
#102=CIRCLE('',#301,25.);
#103=CIRCLE('',#302,23.5);
#104=CIRCLE('',#304,25.);
#105=CIRCLE('',#305,25.);
#106=VERTEX_POINT('',#396);
#107=VERTEX_POINT('',#397);
#108=VERTEX_POINT('',#400);
#109=VERTEX_POINT('',#404);
#110=VERTEX_POINT('',#405);
#111=VERTEX_POINT('',#409);
#112=VERTEX_POINT('',#411);
#113=VERTEX_POINT('',#415);
#114=VERTEX_POINT('',#416);
#115=VERTEX_POINT('',#421);
#116=VERTEX_POINT('',#422);
#117=VERTEX_POINT('',#427);
#118=VERTEX_POINT('',#428);
#119=VERTEX_POINT('',#431);
#120=VERTEX_POINT('',#435);
#121=VERTEX_POINT('',#436);
#122=VERTEX_POINT('',#439);
#123=VERTEX_POINT('',#443);
#124=VERTEX_POINT('',#444);
#125=VERTEX_POINT('',#447);
#126=VERTEX_POINT('',#451);
#127=VERTEX_POINT('',#452);
#128=VERTEX_POINT('',#455);
#129=VERTEX_POINT('',#459);
#130=VERTEX_POINT('',#460);
#131=EDGE_CURVE('',#106,#107,#80,.T.);
#132=EDGE_CURVE('',#107,#106,#81,.T.);
#133=EDGE_CURVE('',#106,#108,#64,.T.);
#134=EDGE_CURVE('',#108,#108,#82,.T.);
#135=EDGE_CURVE('',#109,#110,#83,.T.);
#136=EDGE_CURVE('',#110,#109,#84,.T.);
#137=EDGE_CURVE('',#107,#111,#65,.T.);
#138=EDGE_CURVE('',#112,#111,#85,.T.);
#139=EDGE_CURVE('',#111,#112,#86,.T.);
#140=EDGE_CURVE('',#113,#114,#87,.T.);
#141=EDGE_CURVE('',#114,#110,#88,.T.);
#142=EDGE_CURVE('',#114,#113,#89,.T.);
#143=EDGE_CURVE('',#115,#116,#90,.T.);
#144=EDGE_CURVE('',#116,#114,#66,.T.);
#145=EDGE_CURVE('',#116,#115,#91,.T.);
#146=EDGE_CURVE('',#117,#118,#92,.T.);
#147=EDGE_CURVE('',#118,#117,#93,.T.);
#148=EDGE_CURVE('',#118,#119,#67,.T.);
#149=EDGE_CURVE('',#119,#119,#94,.T.);
#150=EDGE_CURVE('',#120,#121,#95,.T.);
#151=EDGE_CURVE('',#121,#120,#96,.T.);
#152=EDGE_CURVE('',#121,#122,#68,.T.);
#153=EDGE_CURVE('',#122,#122,#97,.T.);
#154=EDGE_CURVE('',#123,#124,#98,.T.);
#155=EDGE_CURVE('',#124,#123,#99,.T.);
#156=EDGE_CURVE('',#124,#125,#69,.T.);
#157=EDGE_CURVE('',#125,#125,#100,.T.);
#158=EDGE_CURVE('',#126,#127,#101,.T.);
#159=EDGE_CURVE('',#127,#126,#102,.T.);
#160=EDGE_CURVE('',#126,#128,#70,.T.);
#161=EDGE_CURVE('',#128,#128,#103,.T.);
#162=EDGE_CURVE('',#129,#130,#104,.T.);
#163=EDGE_CURVE('',#130,#129,#105,.T.);
#164=EDGE_CURVE('',#130,#127,#71,.T.);
#165=ORIENTED_EDGE('',*,*,#131,.T.);
#166=ORIENTED_EDGE('',*,*,#132,.T.);
#167=ORIENTED_EDGE('',*,*,#133,.T.);
#168=ORIENTED_EDGE('',*,*,#134,.T.);
#169=ORIENTED_EDGE('',*,*,#133,.F.);
#170=ORIENTED_EDGE('',*,*,#135,.F.);
#171=ORIENTED_EDGE('',*,*,#136,.F.);
#172=ORIENTED_EDGE('',*,*,#134,.F.);
#173=ORIENTED_EDGE('',*,*,#131,.F.);
#174=ORIENTED_EDGE('',*,*,#132,.F.);
#175=ORIENTED_EDGE('',*,*,#137,.T.);
#176=ORIENTED_EDGE('',*,*,#138,.F.);
#177=ORIENTED_EDGE('',*,*,#139,.F.);
#178=ORIENTED_EDGE('',*,*,#137,.F.);
#179=ORIENTED_EDGE('',*,*,#140,.T.);
#180=ORIENTED_EDGE('',*,*,#141,.T.);
#181=ORIENTED_EDGE('',*,*,#136,.T.);
#182=ORIENTED_EDGE('',*,*,#135,.T.);
#183=ORIENTED_EDGE('',*,*,#141,.F.);
#184=ORIENTED_EDGE('',*,*,#142,.T.);
#185=ORIENTED_EDGE('',*,*,#143,.T.);
#186=ORIENTED_EDGE('',*,*,#144,.T.);
#187=ORIENTED_EDGE('',*,*,#140,.F.);
#188=ORIENTED_EDGE('',*,*,#142,.F.);
#189=ORIENTED_EDGE('',*,*,#144,.F.);
#190=ORIENTED_EDGE('',*,*,#145,.T.);
#191=ORIENTED_EDGE('',*,*,#146,.F.);
#192=ORIENTED_EDGE('',*,*,#147,.F.);
#193=ORIENTED_EDGE('',*,*,#148,.T.);
#194=ORIENTED_EDGE('',*,*,#149,.F.);
#195=ORIENTED_EDGE('',*,*,#148,.F.);
#196=ORIENTED_EDGE('',*,*,#150,.F.);
#197=ORIENTED_EDGE('',*,*,#151,.F.);
#198=ORIENTED_EDGE('',*,*,#152,.T.);
#199=ORIENTED_EDGE('',*,*,#153,.F.);
#200=ORIENTED_EDGE('',*,*,#152,.F.);
#201=ORIENTED_EDGE('',*,*,#154,.F.);
#202=ORIENTED_EDGE('',*,*,#155,.F.);
#203=ORIENTED_EDGE('',*,*,#156,.T.);
#204=ORIENTED_EDGE('',*,*,#157,.F.);
#205=ORIENTED_EDGE('',*,*,#156,.F.);
#206=ORIENTED_EDGE('',*,*,#158,.T.);
#207=ORIENTED_EDGE('',*,*,#159,.T.);
#208=ORIENTED_EDGE('',*,*,#160,.T.);
#209=ORIENTED_EDGE('',*,*,#161,.T.);
#210=ORIENTED_EDGE('',*,*,#160,.F.);
#211=ORIENTED_EDGE('',*,*,#162,.F.);
#212=ORIENTED_EDGE('',*,*,#163,.F.);
#213=ORIENTED_EDGE('',*,*,#164,.T.);
#214=ORIENTED_EDGE('',*,*,#158,.F.);
#215=ORIENTED_EDGE('',*,*,#159,.F.);
#216=ORIENTED_EDGE('',*,*,#164,.F.);
#217=ORIENTED_EDGE('',*,*,#161,.F.);
#218=ORIENTED_EDGE('',*,*,#146,.T.);
#219=ORIENTED_EDGE('',*,*,#147,.T.);
#220=ORIENTED_EDGE('',*,*,#150,.T.);
#221=ORIENTED_EDGE('',*,*,#151,.T.);
#222=ORIENTED_EDGE('',*,*,#154,.T.);
#223=ORIENTED_EDGE('',*,*,#155,.T.);
#224=ORIENTED_EDGE('',*,*,#138,.T.);
#225=ORIENTED_EDGE('',*,*,#139,.T.);
#226=ORIENTED_EDGE('',*,*,#162,.T.);
#227=ORIENTED_EDGE('',*,*,#163,.T.);
#228=ORIENTED_EDGE('',*,*,#149,.T.);
#229=ORIENTED_EDGE('',*,*,#153,.T.);
#230=ORIENTED_EDGE('',*,*,#157,.T.);
#231=ORIENTED_EDGE('',*,*,#143,.F.);
#232=ORIENTED_EDGE('',*,*,#145,.F.);
#233=CONICAL_SURFACE('',#270,13.625,0.785398163397447);
#234=CONICAL_SURFACE('',#287,3.25,0.785398163397448);
#235=CONICAL_SURFACE('',#291,3.25,0.785398163397448);
#236=CONICAL_SURFACE('',#295,3.25,0.785398163397448);
#237=CONICAL_SURFACE('',#299,24.25,0.785398163397448);
#238=ADVANCED_FACE('',(#31),#233,.F.);
#239=ADVANCED_FACE('',(#32,#19),#28,.T.);
#240=ADVANCED_FACE('',(#33),#16,.F.);
#241=ADVANCED_FACE('',(#34),#15,.F.);
#242=ADVANCED_FACE('',(#35),#17,.F.);
#243=ADVANCED_FACE('',(#36),#234,.F.);
#244=ADVANCED_FACE('',(#37),#235,.F.);
#245=ADVANCED_FACE('',(#38),#236,.F.);
#246=ADVANCED_FACE('',(#39),#237,.T.);
#247=ADVANCED_FACE('',(#40),#18,.T.);
#248=ADVANCED_FACE('',(#41,#20,#21,#22,#23),#29,.T.);
#249=ADVANCED_FACE('',(#42,#24,#25,#26,#27),#30,.T.);
#250=CLOSED_SHELL('',(#238,#239,#240,#241,#242,#243,#244,#245,#246,#247,
#248,#249));
#251=DERIVED_UNIT_ELEMENT(#253,1.);
#252=DERIVED_UNIT_ELEMENT(#471,3.);
#253=(
MASS_UNIT()
NAMED_UNIT(*)
SI_UNIT($,.GRAM.)
);
#254=DERIVED_UNIT((#251,#252));
#255=MEASURE_REPRESENTATION_ITEM('density measure',
POSITIVE_RATIO_MEASURE(7.85),#254);
#256=PROPERTY_DEFINITION_REPRESENTATION(#261,#258);
#257=PROPERTY_DEFINITION_REPRESENTATION(#262,#259);
#258=REPRESENTATION('material name',(#260),#468);
#259=REPRESENTATION('density',(#255),#468);
#260=DESCRIPTIVE_REPRESENTATION_ITEM('SS2346','SS2346');
#261=PROPERTY_DEFINITION('material property','material name',#478);
#262=PROPERTY_DEFINITION('material property','density of part',#478);
#263=DATE_TIME_ROLE('creation_date');
#264=CC_DESIGN_DATE_AND_TIME_ASSIGNMENT(#265,#263,(#478));
#265=DATE_AND_TIME(#266,#267);
#266=CALENDAR_DATE(2016,18,10);
#267=LOCAL_TIME(0,0,0.,#268);
#268=COORDINATED_UNIVERSAL_TIME_OFFSET(0,0,.BEHIND.);
#269=AXIS2_PLACEMENT_3D('placement',#394,#308,#309);
#270=AXIS2_PLACEMENT_3D('',#395,#310,#311);
#271=AXIS2_PLACEMENT_3D('',#398,#312,#313);
#272=AXIS2_PLACEMENT_3D('',#399,#314,#315);
#273=AXIS2_PLACEMENT_3D('',#402,#317,#318);
#274=AXIS2_PLACEMENT_3D('',#403,#319,#320);
#275=AXIS2_PLACEMENT_3D('',#406,#321,#322);
#276=AXIS2_PLACEMENT_3D('',#407,#323,#324);
#277=AXIS2_PLACEMENT_3D('',#408,#325,#326);
#278=AXIS2_PLACEMENT_3D('',#412,#328,#329);
#279=AXIS2_PLACEMENT_3D('',#413,#330,#331);
#280=AXIS2_PLACEMENT_3D('',#414,#332,#333);
#281=AXIS2_PLACEMENT_3D('',#417,#334,#335);
#282=AXIS2_PLACEMENT_3D('',#418,#336,#337);
#283=AXIS2_PLACEMENT_3D('',#419,#338,#339);
#284=AXIS2_PLACEMENT_3D('',#420,#340,#341);
#285=AXIS2_PLACEMENT_3D('',#423,#342,#343);
#286=AXIS2_PLACEMENT_3D('',#425,#345,#346);
#287=AXIS2_PLACEMENT_3D('',#426,#347,#348);
#288=AXIS2_PLACEMENT_3D('',#429,#349,#350);
#289=AXIS2_PLACEMENT_3D('',#430,#351,#352);
#290=AXIS2_PLACEMENT_3D('',#433,#354,#355);
#291=AXIS2_PLACEMENT_3D('',#434,#356,#357);
#292=AXIS2_PLACEMENT_3D('',#437,#358,#359);
#293=AXIS2_PLACEMENT_3D('',#438,#360,#361);
#294=AXIS2_PLACEMENT_3D('',#441,#363,#364);
#295=AXIS2_PLACEMENT_3D('',#442,#365,#366);
#296=AXIS2_PLACEMENT_3D('',#445,#367,#368);
#297=AXIS2_PLACEMENT_3D('',#446,#369,#370);
#298=AXIS2_PLACEMENT_3D('',#449,#372,#373);
#299=AXIS2_PLACEMENT_3D('',#450,#374,#375);
#300=AXIS2_PLACEMENT_3D('',#453,#376,#377);
#301=AXIS2_PLACEMENT_3D('',#454,#378,#379);
#302=AXIS2_PLACEMENT_3D('',#457,#381,#382);
#303=AXIS2_PLACEMENT_3D('',#458,#383,#384);
#304=AXIS2_PLACEMENT_3D('',#461,#385,#386);
#305=AXIS2_PLACEMENT_3D('',#462,#387,#388);
#306=AXIS2_PLACEMENT_3D('',#464,#390,#391);
#307=AXIS2_PLACEMENT_3D('',#465,#392,#393);
#308=DIRECTION('axis',(0.,0.,1.));
#309=DIRECTION('refdir',(1.,0.,0.));
#310=DIRECTION('center_axis',(0.,0.,-1.));
#311=DIRECTION('ref_axis',(1.,0.,0.));
#312=DIRECTION('center_axis',(0.,0.,1.));
#313=DIRECTION('ref_axis',(1.,0.,0.));
#314=DIRECTION('center_axis',(0.,0.,1.));
#315=DIRECTION('ref_axis',(1.,0.,0.));
#316=DIRECTION('',(-0.707106781186546,-8.65956056235492E-17,-0.707106781186549));
#317=DIRECTION('center_axis',(0.,0.,-1.));
#318=DIRECTION('ref_axis',(1.,0.,0.));
#319=DIRECTION('center_axis',(0.,0.,-1.));
#320=DIRECTION('ref_axis',(-1.,0.,0.));
#321=DIRECTION('center_axis',(0.,0.,1.));
#322=DIRECTION('ref_axis',(1.,0.,0.));
#323=DIRECTION('center_axis',(0.,0.,1.));
#324=DIRECTION('ref_axis',(1.,0.,0.));
#325=DIRECTION('center_axis',(0.,0.,-1.));
#326=DIRECTION('ref_axis',(-1.,0.,0.));
#327=DIRECTION('',(0.,0.,1.));
#328=DIRECTION('center_axis',(0.,0.,-1.));
#329=DIRECTION('ref_axis',(1.,0.,0.));
#330=DIRECTION('center_axis',(0.,0.,-1.));
#331=DIRECTION('ref_axis',(1.,0.,0.));
#332=DIRECTION('center_axis',(0.,0.,-1.));
#333=DIRECTION('ref_axis',(-1.,0.,0.));
#334=DIRECTION('center_axis',(0.,0.,-1.));
#335=DIRECTION('ref_axis',(1.,0.,0.));
#336=DIRECTION('center_axis',(-1.22464679914735E-16,-1.,0.));
#337=DIRECTION('ref_axis',(1.,-1.22464679914735E-16,0.));
#338=DIRECTION('center_axis',(0.,0.,-1.));
#339=DIRECTION('ref_axis',(1.,0.,0.));
#340=DIRECTION('center_axis',(0.,0.,-1.));
#341=DIRECTION('ref_axis',(-1.,0.,0.));
#342=DIRECTION('center_axis',(0.,0.,-1.));
#343=DIRECTION('ref_axis',(1.,0.,0.));
#344=DIRECTION('',(0.,0.,1.));
#345=DIRECTION('center_axis',(0.,0.,-1.));
#346=DIRECTION('ref_axis',(1.,0.,0.));
#347=DIRECTION('center_axis',(0.,0.,1.));
#348=DIRECTION('ref_axis',(-0.500000000000001,0.866025403784438,0.));
#349=DIRECTION('center_axis',(0.,0.,-1.));
#350=DIRECTION('ref_axis',(-0.500000000000001,0.866025403784438,0.));
#351=DIRECTION('center_axis',(0.,0.,-1.));
#352=DIRECTION('ref_axis',(-0.500000000000001,0.866025403784438,0.));
#353=DIRECTION('',(-0.353553390593274,0.612372435695794,-0.707106781186548));
#354=DIRECTION('center_axis',(0.,0.,1.));
#355=DIRECTION('ref_axis',(-0.500000000000001,0.866025403784438,0.));
#356=DIRECTION('center_axis',(0.,0.,1.));
#357=DIRECTION('ref_axis',(-0.5,-0.866025403784439,0.));
#358=DIRECTION('center_axis',(0.,0.,-1.));
#359=DIRECTION('ref_axis',(-0.5,-0.866025403784439,0.));
#360=DIRECTION('center_axis',(0.,0.,-1.));
#361=DIRECTION('ref_axis',(-0.5,-0.866025403784439,0.));
#362=DIRECTION('',(-0.353553390593274,-0.612372435695795,-0.707106781186548));
#363=DIRECTION('center_axis',(0.,0.,1.));
#364=DIRECTION('ref_axis',(-0.5,-0.866025403784439,0.));
#365=DIRECTION('center_axis',(0.,0.,1.));
#366=DIRECTION('ref_axis',(1.,0.,0.));
#367=DIRECTION('center_axis',(0.,0.,-1.));
#368=DIRECTION('ref_axis',(1.,0.,0.));
#369=DIRECTION('center_axis',(0.,0.,-1.));
#370=DIRECTION('ref_axis',(1.,0.,0.));
#371=DIRECTION('',(0.707106781186548,8.65956056235494E-17,-0.707106781186548));
#372=DIRECTION('center_axis',(0.,0.,1.));
#373=DIRECTION('ref_axis',(1.,0.,0.));
#374=DIRECTION('center_axis',(0.,0.,-1.));
#375=DIRECTION('ref_axis',(1.,0.,0.));
#376=DIRECTION('center_axis',(0.,0.,1.));
#377=DIRECTION('ref_axis',(1.,0.,0.));
#378=DIRECTION('center_axis',(0.,0.,1.));
#379=DIRECTION('ref_axis',(1.,0.,0.));
#380=DIRECTION('',(0.707106781186547,-8.65956056235493E-17,0.707106781186548));
#381=DIRECTION('center_axis',(0.,0.,-1.));
#382=DIRECTION('ref_axis',(1.,0.,0.));
#383=DIRECTION('center_axis',(0.,0.,-1.));
#384=DIRECTION('ref_axis',(-1.,0.,0.));
#385=DIRECTION('center_axis',(0.,0.,-1.));
#386=DIRECTION('ref_axis',(1.,0.,0.));
#387=DIRECTION('center_axis',(0.,0.,-1.));
#388=DIRECTION('ref_axis',(1.,0.,0.));
#389=DIRECTION('',(0.,0.,1.));
#390=DIRECTION('center_axis',(0.,0.,1.));
#391=DIRECTION('ref_axis',(1.,0.,0.));
#392=DIRECTION('center_axis',(0.,0.,-1.));
#393=DIRECTION('ref_axis',(-1.,0.,0.));
#394=CARTESIAN_POINT('',(0.,0.,0.));
#395=CARTESIAN_POINT('Origin',(0.,0.,-0.875));
#396=CARTESIAN_POINT('',(-13.5,-1.65327317884893E-15,-0.75));
#397=CARTESIAN_POINT('',(13.5,-1.65327317884893E-15,-0.75));
#398=CARTESIAN_POINT('Origin',(0.,0.,-0.75));
#399=CARTESIAN_POINT('Origin',(0.,0.,-0.75));
#400=CARTESIAN_POINT('',(-13.75,1.68388934882761E-15,-1.));
#401=CARTESIAN_POINT('',(-13.625,-1.66858126383827E-15,-0.875));
#402=CARTESIAN_POINT('Origin',(0.,0.,-1.));
#403=CARTESIAN_POINT('Origin',(-13.5,0.,-1.));
#404=CARTESIAN_POINT('',(-14.95,-1.83084696472529E-15,-1.));
#405=CARTESIAN_POINT('',(14.95,-1.83084696472529E-15,-1.));
#406=CARTESIAN_POINT('Origin',(0.,0.,-1.));
#407=CARTESIAN_POINT('Origin',(0.,0.,-1.));
#408=CARTESIAN_POINT('Origin',(0.,0.,-0.5));
#409=CARTESIAN_POINT('',(13.5,-1.65327317884893E-15,0.));
#410=CARTESIAN_POINT('',(13.5,-1.65327317884893E-15,-0.5));
#411=CARTESIAN_POINT('',(-13.5,0.,1.77185554883508E-33));
#412=CARTESIAN_POINT('Origin',(0.,0.,1.77185554883508E-33));
#413=CARTESIAN_POINT('Origin',(0.,0.,1.77185554883508E-33));
#414=CARTESIAN_POINT('Origin',(0.,0.,-1.25));
#415=CARTESIAN_POINT('',(-15.2,1.86146313470398E-15,-1.25));
#416=CARTESIAN_POINT('',(15.2,-1.86146313470398E-15,-1.25));
#417=CARTESIAN_POINT('Origin',(0.,0.,-1.25));
#418=CARTESIAN_POINT('Origin',(14.95,-1.83084696472529E-15,-1.25));
#419=CARTESIAN_POINT('Origin',(0.,0.,-1.25));
#420=CARTESIAN_POINT('Origin',(0.,0.,-1.4));
#421=CARTESIAN_POINT('',(-15.2,0.,-1.8));
#422=CARTESIAN_POINT('',(15.2,-1.86146313470398E-15,-1.8));
#423=CARTESIAN_POINT('Origin',(0.,0.,-1.8));
#424=CARTESIAN_POINT('',(15.2,-1.86146313470398E-15,-1.4));
#425=CARTESIAN_POINT('Origin',(0.,0.,-1.8));
#426=CARTESIAN_POINT('Origin',(-16.4544826719043,-9.50000000000001,-1.));
#427=CARTESIAN_POINT('',(-18.5794826719043,-5.81939203391615,-2.13821176807376E-49));
#428=CARTESIAN_POINT('',(-14.3294826719043,-13.1806079660839,1.2490009027033E-15));
#429=CARTESIAN_POINT('Origin',(-16.4544826719043,-9.50000000000001,0.));
#430=CARTESIAN_POINT('Origin',(-16.4544826719043,-9.50000000000001,0.));
#431=CARTESIAN_POINT('',(-15.2294826719043,-11.6217622392719,-1.8));
#432=CARTESIAN_POINT('',(-14.8294826719043,-12.3145825622994,-1.));
#433=CARTESIAN_POINT('Origin',(-16.4544826719043,-9.50000000000001,-1.8));
#434=CARTESIAN_POINT('Origin',(16.4544826719043,-9.5,-1.));
#435=CARTESIAN_POINT('',(14.3294826719043,-13.1806079660839,-2.13821176807376E-49));
#436=CARTESIAN_POINT('',(18.5794826719043,-5.81939203391613,1.66533453693773E-15));
#437=CARTESIAN_POINT('Origin',(16.4544826719043,-9.5,0.));
#438=CARTESIAN_POINT('Origin',(16.4544826719043,-9.5,0.));
#439=CARTESIAN_POINT('',(17.6794826719043,-7.37823776072812,-1.8));
#440=CARTESIAN_POINT('',(18.0794826719043,-6.68541743770057,-1.));
#441=CARTESIAN_POINT('Origin',(16.4544826719043,-9.5,-1.8));
#442=CARTESIAN_POINT('Origin',(0.,19.,-1.));
#443=CARTESIAN_POINT('',(4.25,19.,-2.13821176807376E-49));
#444=CARTESIAN_POINT('',(-4.25,19.,1.11022302462516E-15));
#445=CARTESIAN_POINT('Origin',(0.,19.,0.));
#446=CARTESIAN_POINT('Origin',(0.,19.,0.));
#447=CARTESIAN_POINT('',(-2.45,19.,-1.8));
#448=CARTESIAN_POINT('',(-3.25,19.,-1.));
#449=CARTESIAN_POINT('Origin',(0.,19.,-1.8));
#450=CARTESIAN_POINT('Origin',(0.,0.,-0.75));
#451=CARTESIAN_POINT('',(-25.,-3.06161699786838E-15,-1.5));
#452=CARTESIAN_POINT('',(25.,-3.06161699786838E-15,-1.5));
#453=CARTESIAN_POINT('Origin',(0.,0.,-1.5));
#454=CARTESIAN_POINT('Origin',(0.,0.,-1.5));
#455=CARTESIAN_POINT('',(-23.5,2.87791997799628E-15,0.));
#456=CARTESIAN_POINT('',(-24.25,2.96976848793233E-15,-0.75));
#457=CARTESIAN_POINT('Origin',(0.,0.,0.));
#458=CARTESIAN_POINT('Origin',(0.,0.,-0.899999999999999));
#459=CARTESIAN_POINT('',(-25.,0.,-1.8));
#460=CARTESIAN_POINT('',(25.,-3.06161699786838E-15,-1.8));
#461=CARTESIAN_POINT('Origin',(0.,0.,-1.8));
#462=CARTESIAN_POINT('Origin',(0.,0.,-1.8));
#463=CARTESIAN_POINT('',(25.,-3.06161699786838E-15,-0.899999999999999));
#464=CARTESIAN_POINT('Origin',(-25.,0.,-2.13821176807376E-49));
#465=CARTESIAN_POINT('Origin',(-15.2,0.,-1.8));
#466=UNCERTAINTY_MEASURE_WITH_UNIT(LENGTH_MEASURE(0.01),#470,
'DISTANCE_ACCURACY_VALUE',
'Maximum model space distance between geometric entities at asserted c
onnectivities');
#467=UNCERTAINTY_MEASURE_WITH_UNIT(LENGTH_MEASURE(0.01),#470,
'DISTANCE_ACCURACY_VALUE',
'Maximum model space distance between geometric entities at asserted c
onnectivities');
#468=(
GEOMETRIC_REPRESENTATION_CONTEXT(3)
GLOBAL_UNCERTAINTY_ASSIGNED_CONTEXT((#466))
GLOBAL_UNIT_ASSIGNED_CONTEXT((#470,#472,#473))
REPRESENTATION_CONTEXT('','3D')
);
#469=(
GEOMETRIC_REPRESENTATION_CONTEXT(3)
GLOBAL_UNCERTAINTY_ASSIGNED_CONTEXT((#467))
GLOBAL_UNIT_ASSIGNED_CONTEXT((#470,#472,#473))
REPRESENTATION_CONTEXT('','3D')
);
#470=(
LENGTH_UNIT()
NAMED_UNIT(*)
SI_UNIT(.MILLI.,.METRE.)
);
#471=(
LENGTH_UNIT()
NAMED_UNIT(*)
SI_UNIT(.CENTI.,.METRE.)
);
#472=(
NAMED_UNIT(*)
PLANE_ANGLE_UNIT()
SI_UNIT($,.RADIAN.)
);
#473=(
NAMED_UNIT(*)
SI_UNIT($,.STERADIAN.)
SOLID_ANGLE_UNIT()
);
#474=SHAPE_DEFINITION_REPRESENTATION(#475,#476);
#475=PRODUCT_DEFINITION_SHAPE('',$,#478);
#476=SHAPE_REPRESENTATION('',(#269),#468);
#477=DESIGN_CONTEXT('part definition',#482,'design');
#478=PRODUCT_DEFINITION('28-117-0011','28-117-0011-X-3D',#479,#477);
#479=PRODUCT_DEFINITION_FORMATION('A',$,#484);
#480=PRODUCT_RELATED_PRODUCT_CATEGORY('28-117-0011-X-3D',
'28-117-0011-X-3D',(#484));
#481=APPLICATION_PROTOCOL_DEFINITION('international standard',
'ap203_configuration_controlled_3d_design_of_mechanical_parts_and_asse
mblies_mim_lf',2004,#482);
#482=APPLICATION_CONTEXT(
'Configuration Controlled 3D Design of Mechanical Parts and Assemblies');
#483=MECHANICAL_CONTEXT('part definition',#482,'mechanical');
#484=PRODUCT('28-117-0011','28-117-0011-X-3D',
'OLDA FS R30 - Bracket for screw fitting of floor socket, round',(#483));
#485=PRESENTATION_STYLE_ASSIGNMENT((#486));
#486=SURFACE_STYLE_USAGE(.BOTH.,#489);
#487=SURFACE_STYLE_RENDERING_WITH_PROPERTIES($,#493,(#488));
#488=SURFACE_STYLE_TRANSPARENT(0.);
#489=SURFACE_SIDE_STYLE('',(#490,#487));
#490=SURFACE_STYLE_FILL_AREA(#491);
#491=FILL_AREA_STYLE('',(#492));
#492=FILL_AREA_STYLE_COLOUR('',#493);
#493=COLOUR_RGB('',0.956862745098039,0.956862745098039,0.956862745098039);
ENDSEC;
END-ISO-10303-21;
